  0
SECTION
  2
HEADER
  9
$LIMMIN
 10
-108.901634
 20
0.000000
  9
$LIMMAX
 10
48.427796
 20
247.980828
  9
$EXTMIN
 10
-108.901634
 20
0.000000
  9
$EXTMAX
 10
48.427796
 20
247.980828
  9
$ANGBASE
 50
0.000000
  9
$ANGDIR
 70
0
  9
$INSUNITS
 70
4
  9
$DIMALT
 70
4
  9
$DIMLUNIT
 70
2
  9
$DIMASZ
 40
3.000000
  9
$DIMTXT
 40
5.000000
  9
$DIMRND
 40
0.010000
  9
$DIMEXE
 40
2.000000
  9
$DIMEXO
 40
2.000000
  9
$DIMAUNIT
 70
0
  9
$DIMADEC
 70
2
  9
$GRIDUNIT
 10
0.001000
 20
0.001000
  9
$PLIMMIN
 10
0.000000
 20
0.000000
  9
$PLIMMAX
 10
210.000000
 20
297.000000
  9
$PSVPSCALE
 40
1.000000
  0
ENDSEC
  0
SECTION
  2
TABLES
  0
TABLE
  2
LTYPE
 70
     1
  0
LTYPE
  2
CONTINUOUS
 70
    64
  3
Ausgez
 72
    65
 73
  0
 40
0.000000
  0
ENDTAB
  0
TABLE
  2
LAYER
 70
     1
  0
LAYER
  2
default
 70
    64
 62
7
  6
CONTINUOUS
  0
ENDTAB
  0
ENDSEC
  0
SECTION
  2
BLOCKS
  0
ENDSEC
  0
SECTION
  2
ENTITIES
  0
LINE
  8
default
  6
CONTINUOUS
 10
-94.928972
 20
189.857944
 11
-24.426168
 21
189.857944
 39
0
 62
7
  0
LINE
  8
default
  6
CONTINUOUS
 10
-24.426168
 20
189.857944
 11
-24.426168
 21
119.355140
 39
0
 62
7
  0
LINE
  8
default
  6
CONTINUOUS
 10
-24.426168
 20
119.355140
 11
-94.928972
 21
119.355140
 39
0
 62
7
  0
LINE
  8
default
  6
CONTINUOUS
 10
-94.928972
 20
119.355140
 11
-94.928972
 21
189.857944
 39
0
 62
7
  0
LINE
  8
default
  6
CONTINUOUS
 10
-24.426168
 20
189.857944
 11
-24.426168
 21
189.857944
 39
0
 62
7
  0
LINE
  8
default
  6
CONTINUOUS
 10
-24.426168
 20
189.857944
 11
-24.426168
 21
119.355140
 39
0
 62
7
  0
LINE
  8
default
  6
CONTINUOUS
 10
-24.426168
 20
119.355140
 11
-24.426168
 21
119.355140
 39
0
 62
7
  0
LINE
  8
default
  6
CONTINUOUS
 10
-24.426168
 20
119.355140
 11
-24.426168
 21
189.857944
 39
0
 62
7
  0
LINE
  8
default
  6
CONTINUOUS
 10
-24.426168
 20
189.857944
 11
-21.650467
 21
189.857944
 39
0
 62
7
  0
LINE
  8
default
  6
CONTINUOUS
 10
-21.650467
 20
189.857944
 11
-21.650467
 21
119.355140
 39
0
 62
7
  0
LINE
  8
default
  6
CONTINUOUS
 10
-21.650467
 20
119.355140
 11
-24.426168
 21
119.355140
 39
0
 62
7
  0
LINE
  8
default
  6
CONTINUOUS
 10
-24.426168
 20
119.355140
 11
-24.426168
 21
189.857944
 39
0
 62
7
  0
LINE
  8
default
  6
DOT
 10
-24.426168
 20
121.575701
 11
-94.928972
 21
121.575701
 39
0
 62
7
  0
LINE
  8
default
  6
DOT
 10
-24.302921
 20
186.732568
 11
-94.750627
 21
186.732568
 39
0
 62
7
  0
LINE
  8
default
  6
DOT
 10
-58.757694
 20
119.053548
 11
-58.757694
 21
121.514603
 39
0
 62
7
  0
LINE
  8
default
  6
DOT
 10
-55.373743
 20
121.514603
 11
-55.373743
 21
119.053548
 39
0
 62
7
  0
LINE
  8
default
  6
DOT
 10
-84.906406
 20
189.808887
 11
-84.906406
 21
186.732568
 39
0
 62
7
  0
LINE
  8
default
  6
DOT
 10
-34.762405
 20
186.732568
 11
-34.762405
 21
189.808887
 39
0
 62
7
  0
LINE
  8
default
  6
DOT
 10
-24.302921
 20
152.893058
 11
-21.534233
 21
152.893058
 39
0
 62
7
  0
LINE
  8
default
  6
DOT
 10
-21.534233
 20
155.969377
 11
-24.302921
 21
155.969377
 39
0
 62
7
  0
LINE
  8
default
  6
CONTINUOUS
 10
-21.534233
 20
155.969377
 11
44.606627
 21
155.969377
 39
0
 62
7
  0
LINE
  8
default
  6
CONTINUOUS
 10
-21.534233
 20
152.893058
 11
44.914258
 21
152.893058
 39
0
 62
7
  0
LINE
  8
default
  6
CONTINUOUS
 10
-24.302921
 20
155.969377
 11
-51.989792
 21
155.969377
 39
0
 62
7
  0
LINE
  8
default
  6
CONTINUOUS
 10
-24.302921
 20
152.893058
 11
-51.989792
 21
152.893058
 39
0
 62
7
  0
ARC
  8
default
  6
CONTINUOUS
 10
-52.126518
 20
154.328673
 40
1.538160
 50
90.000000
 51
276.340192
 39
0
 62
7
  0
ARC
  8
default
  6
DOT
 10
-51.955611
 20
154.328673
 40
2.989645
 50
30.963757
 51
326.309932
 39
0
 62
7
  0
LINE
  8
default
  6
CONTINUOUS
 10
-55.373743
 20
121.514603
 11
-55.373743
 21
131.598094
 39
0
 62
7
  0
LINE
  8
default
  6
CONTINUOUS
 10
-58.757694
 20
121.514603
 11
-58.791876
 21
131.598094
 39
0
 62
7
  0
ARC
  8
default
  6
CONTINUOUS
 10
-57.082809
 20
131.256280
 40
1.547625
 50
354.805571
 51
186.340192
 39
0
 62
7
  0
LINE
  8
default
  6
DOT
 10
-53.255452
 20
128.359294
 11
-60.936527
 21
130.236890
 39
0
 62
7
  0
LINE
  8
default
  6
CONTINUOUS
 10
-60.936527
 20
130.236890
 11
-48.646807
 21
184.687176
 39
0
 62
7
  0
LINE
  8
default
  6
CONTINUOUS
 10
-53.255452
 20
128.359294
 11
-48.305426
 21
152.426662
 39
0
 62
7
  0
LINE
  8
default
  6
DOT
 10
-48.305426
 20
152.426662
 11
-47.451973
 21
155.669783
 39
0
 62
7
  0
LINE
  8
default
  6
CONTINUOUS
 10
-47.451973
 20
155.669783
 11
-41.307113
 21
183.321652
 39
0
 62
7
  0
LINE
  8
default
  6
CONTINUOUS
 10
-41.307113
 20
183.321652
 11
-41.307113
 21
186.394082
 39
0
 62
7
  0
LINE
  8
default
  6
DOT
 10
-41.307113
 20
186.394082
 11
-41.648494
 21
189.807893
 39
0
 62
7
  0
LINE
  8
default
  6
DOT
 10
-45.062305
 20
189.978583
 11
-46.939902
 21
186.564772
 39
0
 62
7
  0
LINE
  8
default
  6
CONTINUOUS
 10
-46.939902
 20
186.564772
 11
-48.646807
 21
184.687176
 39
0
 62
7
  0
LINE
  8
default
  6
CONTINUOUS
 10
-45.062305
 20
189.978583
 11
-42.618690
 21
193.318378
 39
0
 62
7
  0
LINE
  8
default
  6
CONTINUOUS
 10
-41.648494
 20
189.807893
 11
-41.766316
 21
192.806954
 39
0
 62
7
  0
LINE
  8
default
  6
CONTINUOUS
 10
-41.766316
 20
192.806954
 11
-32.390204
 21
234.686920
 39
0
 62
7
  0
LINE
  8
default
  6
CONTINUOUS
 10
-42.618690
 20
193.318378
 11
-42.618690
 21
193.318378
 39
0
 62
7
  0
LINE
  8
default
  6
CONTINUOUS
 10
-42.618690
 20
193.318378
 11
-33.242578
 21
234.402795
 39
0
 62
7
  0
LINE
  8
default
  6
CONTINUOUS
 10
-33.242578
 20
234.402795
 11
-32.390204
 21
234.686920
 39
0
 62
7
  0
LINE
  8
default
  6
CONTINUOUS
 10
-21.650467
 20
189.857944
 11
-8.309763
 21
247.980828
 39
0
 62
7
  0
LINE
  8
default
  6
CONTINUOUS
 10
-8.309763
 20
247.980828
 11
-108.901634
 21
247.980828
 39
0
 62
7
  0
LINE
  8
default
  6
CONTINUOUS
 10
-108.901634
 20
247.980828
 11
-94.928972
 21
189.857944
 39
0
 62
7
  0
LINE
  8
default
  6
CONTINUOUS
 10
44.834214
 20
126.630985
 11
48.256673
 21
126.630985
 39
0
 62
7
  0
LINE
  8
default
  6
CONTINUOUS
 10
48.256673
 20
126.630985
 11
48.256673
 21
181.732576
 39
0
 62
7
  0
LINE
  8
default
  6
CONTINUOUS
 10
48.256673
 20
181.732576
 11
44.834214
 21
181.732576
 39
0
 62
7
  0
LINE
  8
default
  6
CONTINUOUS
 10
44.834214
 20
181.732576
 11
44.834214
 21
126.630985
 39
0
 62
7
  0
LINE
  8
default
  6
DOT
 10
44.606627
 20
155.969377
 11
48.427796
 21
155.893010
 39
0
 62
7
  0
LINE
  8
default
  6
DOT
 10
44.914258
 20
152.893058
 11
48.427796
 21
152.983920
 39
0
 62
7
  0
CIRCLE
  8
default
  6
DOT
 10
-43.308895
 20
182.214255
 40
0.590498
 39
0
 62
7
  0
LINE
  8
default
  6
DOT
 10
-24.295234
 20
183.534648
 11
-21.390369
 21
183.534648
 39
0
 62
7
  0
LINE
  8
default
  6
DOT
 10
-21.390369
 20
182.214255
 11
-24.295234
 21
182.214255
 39
0
 62
7
  0
ENDSEC
  0
EOF
